Song name
# A B C D E F G H I J K L M N O P Q R S T U V W X Y Z

Misc Unsigned Bands - Requiem Of Silence - A Sonnet For The Fallen tab

Help us improve GuitareTab! Take a short survey!
This is my bands tabs. http://www.angelfire.com/ill/darkless/index.html
and another thing is, that we are new and no tabs are on the site.

A Sonnet For the Fallen - Lead Guitar Tabs

------------------------
--------4-4-4---4-------
--------6-6-6-4-6-------
----------------6-------
------------------------
------------------------



-----------18----------
-----------18----------
-----------------------
-----------------------
-----------------------
-----------------------


------000000---44445544---0000000--------4---444446444---86666866---7777779---
------000000---44445544---0000000--------4---444446444---86666866---7777779---
------------------------------------------------------------------------------
------------------------------------------------------------------------------
------------------------------------------------------------------------------
------------------------------------------------------------------------------ x2 (minus the high sting 0)



------00000000000000001---1111000000000000---333---333---222---0000-----------
------00000000000000001---1111000000000000---333---333---222---0000-----------
------------------------------------------------------------------------------
------------------------------------------------------------------------------
------------------------------------------------------------------------------
------------------------------------------------------------------------------


------000111000111000111000111000111000111000111000111000111000-------------
------000111000111000111000111000111000111000111000111000111000-------------
----------------------------------------------------------------------------(Chorus)
----------------------------------------------------------------------------
----------------------------------------------------------------------------
----------------------------------------------------------------------------



------00000000000000001---1111000000000000---333---333---222---18-----------
------00000000000000001---1111000000000000---333---333---222---18-----------
----------------------------------------------------------------------------
----------------------------------------------------------------------------
----------------------------------------------------------------------------
----------------------------------------------------------------------------


(Chorus)


-999---101010---11 11 11---121212---9 9  9---9  9   9--9  9  9---9  9  9----9 9   9---9  9  9-
-999---101010---11 11 11---121212--12 12 12--12 12 12--12 12 12--12 12 12--12 12 12--12 12 12-
----------------------------------------------------------------------------------------------
----------------------------------------------------------------------------------------------
----------------------------------------------------------------------------------------------
------------------------------------------------------------------------------ (all the way until the end)
Related for Requiem Of Silence - A Sonnet For The Fallen tab