Guitaretab - guitar tabs
Song name
# A B C D E F G H I J K L M N O P Q R S T U V W X Y Z

Misc Unsigned Bands - Bluefunk - Krucified tab

This is my first tab on this site, so tell me what you think of it aright
Key =
p.= Palm mute
~ - continue to p. mute + also let not last fr min.
INTRO = (PLAY 5X)
E|----------------------|----------------------------------------|
B|----------------------|----------------------------------------|
G|----------------------|----------------------------------------|
D|----------------------|----------------------------------------|
A|2-2-2--2-2-22-2-2-2-3~|2-2-2--2-2-22-2-2-2-3~3~----------------|
E|0-0-0--0-0-00-0-0-0-3~|0-0-0--0-0-00-0-0-0-3~3~----------------|
  p.~ ~         p.~ ~    p.~ ~         p.~ ~
[ Tab from: http://www.guitaretab.com/m/misc-unsigned-bands/49359.html ]
Verse - 3x
E|---------------------------------------------------------------------|
B|---------------------------------------------------------------------|
G|---------------------------------------------------------------------|
D|-2-------------------------------------------------------------------|
A|-0---77/5--55/4--44/3--3/6\3-3--2~-----------------------------------|
E|-----55/3--33/2--22/1--1-4-1-1--0~-----------------------------------|
   P.     P.    P.    P.       P.

Chorus (Play 3x)
E|-------------------------------------------------------------------|
B|-------------------------------------------------------------------|
G|-------------------------------------------------------------------|
D|-----------------7----------7----------7---------------------------|
A|2-2-2-999-9/10\9-5-7-7--777-5-5-5--555-5-4-4-4/6\4-2-2-------------|
E|0-0-0-777-7--8-7---5-5--555---3-3--333---2-2-2-4-2-0-0-------------|
       p.~~          p.~        p.~        P.~       p.
Related for Bluefunk - Krucified tab