Song name
# A B C D E F G H I J K L M N O P Q R S T U V W X Y Z

Misc Unsigned Bands - No Longer Perfect - Out Of Focus tab

Composed/Tabbed by: Matt Radford of No Longer Perfect (Canada)
http://www.nolongerperfect.tk
Tuning: Drop D

Intro
E--------------------------------- 
B--------------------------------- 
G---(4)--------------------------- 
D---(4)------------------------12/ 
A---(2)------------------------12/ 
D---(3)--0000000000000000000---12/ 

Chorus
E------------------------------|------------------------ 
B------------------------------|------------------------ 
G------------------------------|------------------------ 
D---000--12-0-13-0-12-0-12/13--|--5-5/8/3/5^v----------- 
A---000--12-0-13-0-12-0-12/13--|------------------------ 
D---000--12-0-13-0-12-0-12/13--|------------------------ 

Verse
E-----------------------------------|--------------------- 
B-----------------------------------|--------------------- 
G-----------------------------------|--------------------- 
D----00---3--55--3----000---55--3---|------12^------------ 
A----00---3--55--3----000---55--3---|--------------------- 
D----00---3--55--3----000---55--3---|--------------------- 
     **               ***                

Solo                                           
E----------------------------------------------------------------
B-12h15p12h15p12h15p12----------------------15^------------------ 
G-----------------------------14p12----14^-----------------------
D-----------------------------------14--------------------------- 
A---------------------------------------------------------------- 
D---------------------------------------------------------------- 

2nd Guitar (Solo)
E------------------------------------------------------------- 
B------------------------------------------------------------- 
G------------------------------------------------------------ 
D---12/0--3--33--3h5p3p0-------------------------------------- 
A---12/0--3--33--3h5p3p0-------------------------------------- 
D---12/0--3--33--3h5p3p0--------------------------------------
Tap to rate this tab
# A B C D E F G H I J K L M N O P Q R S T U V W X Y Z