Song name
# A B C D E F G H I J K L M N O P Q R S T U V W X Y Z

Misc Unsigned Bands - Ceasefire - Army Of The Future tab

CEASEFIRE IS A LOCAL BAND
THE URL IS: expage.com/justice
ALBUM: FUEL FOR AN ASSASSINATION//RHETORIC FOR A PROTEST
BOTH GUITARS COINCIDE WITH BASS INTRO
e-1--
b-1--
g-2-2
d-3-3
a-3-3
e-1-3
PHRASE 1:
e----------1
b----------3
g--------3-2
d-555555-X--
a-555555-1--
e-333333----
NO PLAY FOR VERSE
IN BETWEEN VERSES:
e----------------------
b----------------------
g-99-9--77-7--55-5--(3)
d-XX-X--XX-X--XX-X--(X)
a-77-7--55-5--33-3--(1)
e----------------------
CHORUS:
e-5-5-555------
b-5-5-555------
g-6-6-666-7-7-9
d-7-X-777-X-X-X
a-7-X-777-5-0-7
e-5-5-555------
Tap to rate this tab
# A B C D E F G H I J K L M N O P Q R S T U V W X Y Z