Song name
# A B C D E F G H I J K L M N O P Q R S T U V W X Y Z

Misc Unsigned Bands - The Contempt To - Kuznetsova tab

Band: The Contempt To...
Song: Kuznetsova
Guitar by Tyler Sibole, Sam Ghivizzani, and Kevin Barber
This is a local band from Virginia.

Verse1-GTR1 (clean)
e|-------------------------------------------------|
B|-----1---0---1---3---1---0---1-------------------|
G|---2---------------------------------------------|
D|-2-----2---2---2---2---2---2---------------------|
A|-------------------------------------------------|
E|-----------------------------------------------\-|
                                                 |PLAY TWICE
e|------------------------------------------------|
B|------1---0---1---3---1---0(hold)---------------|
G|------------------------------------------------|
D|----2-------------------------------------------|
A|--3-----3---3---3---3---3-----------------------|
E|------------------------------------------------|

Verse2-GTR1,2 (clean)(start during second time around of verse1)
    Am                                C
e|-----------------------------------------------|
B|--1-\-\-\-\-\-x-0-\-\-\-\-\-1-\-\-\-1-\-\-\----|
G|--2-\-\-\-\-\-x-2-\-\-\-\-\-3-\-\-\-0-\-\-\----|
D|--2-\-\-\-\-\-x-2-\-\-\-\-\-0-\-\-\-2-\-\-\----|
A|----------------------------2-\-\-\-3-\-\-\----|
E|-----------------------------------------------|

    Am                                C(hold)
e|-----------------------------------------------|
B|--1-\-\-\-\-\-x-0-\-\-\-\-\-1-\-\-\-1----------|
G|--2-\-\-\-\-\-x-2-\-\-\-\-\-3-\-\-\-0----------|
D|--2-\-\-\-\-\-x-2-\-\-\-\-\-0-\-\-\-2----------|
A|----------------------------2-\-\-\-3----------|
E|-----------------------------------------------|
Tap to rate this tab
# A B C D E F G H I J K L M N O P Q R S T U V W X Y Z