Song name
# A B C D E F G H I J K L M N O P Q R S T U V W X Y Z

Misc Unsigned Bands - Bright Black Guitars - Nectar tab

I'm a finger picker and I love finger picking fast. This song is fast, I dunno how fast 
but I would guess about 180-200 bpm.
If ya like the riff, e-mail me and let me know:
ifyoufalliwillcatchyouillbewaiting_timeaftertime@hotmail.com
~TheLoser

Riff 1
|----------------------------------------|
|----3----3----3-----3-------1-----------|
|----0----0----0-----2-------0-----------|
|--0----0----0-----0-------2-------------|
|-----------------2-----2-3-----3p0------|
|-3----3----------------------------(x2)-|

Riff 2
|-------0----------0--------------0-----------------------------------|
|----1---1-1--------0-0-----1------1----------------------------------|
|----2----2------0---0------2---2-------0---0-------------------------|
|--2---2--------2---------2----2-------2---2--------------------------|
|-0------------2---------0----0-------3---2---0-----------------------|
|-------------0---------------------------------(then back to Riff 1)-|

Short but sweet. Kinda just a riff to get you going on something else. It also sparks 
really good lyrics.
Tap to rate this tab
 
# A B C D E F G H I J K L M N O P Q R S T U V W X Y Z