Song name
# A B C D E F G H I J K L M N O P Q R S T U V W X Y Z

Misc Unsigned Bands - Vaginal Incest - Cuntcore tab

http://www.vaginalincest.com/new

band: vaginal incest
song: cuntcore

tabber: John Cukras
email: riffreaper@yahoo.com

tuning: normal

riff 1:
E-----------------------------------------------------|
B-----------------------------------------------------|
G-----------------------------------------------------|
D-4-4-4-5-4--------------4-4-4-5-4--------------------|
A-2-2-2-3-2--------------2-2-2-3-2--------------------|
E-----------222-333-111------------0-1-2-3-2-1  x's 2-|
pm                                 . . . . . .

Riff 2:
E------------------------------------|
B------------------------------------|
G------------------------------------|
D------------------------------------|
A-4-----------4--------------------4-|
E-2-222222222-2-222-333-111 x's 5--2-|
Tap to rate this tab
 
# A B C D E F G H I J K L M N O P Q R S T U V W X Y Z