Song name
# A B C D E F G H I J K L M N O P Q R S T U V W X Y Z

Misc Unsigned Bands - Vaginal Incest - Cocks And Cunts tab

Help us improve GuitareTab! Take a short survey!
http://www.vaginalincest.com/new

band: vaginal incest
song: cocks and cunts

tabber: John Cukras
email: riffreaper@yahoo.com

tuning: normal

riff 1:
E-------------------------------------------------------------------------------|
B-------------------------------------------------------------------------------|
G-------------------------------------------------------------------------------|
D----------------------------------------------------------------------------3~-|
A-4-5-4-3--4-5----4-5-4----4-----5-4--5-4----4----4-----5-4--5-4----4----4------|
E-2-3-2-1--2-3-00-2-3-2-00-2-000-3-2--3-2-00-2-00-2-000-3-2--3-2-00-2-00-2-1----|
pm             ..       ..   ...          ..   ..   ...          ..   ..

Riff 2:
E--------------------------------------------------------------------------------|
B--------------------------------------------------------------------------------|
G--------------------------------------------------------------------------------|
D--------------------------------------------------------------------------------|
A-5-4----4----4----5--5-4----4----4--------5-4----4----4----5--5-4----4----5-4-5-|
E-3-2-00-2-00-2-00-3--3-2-00-2-00-2-1-2-3--3-2-00-2-00-2-00-3--3-2-00-2-00-3-2-3-|
pm    ..   ..   ..        ..   ..              ..   ..   ..        ..   ..

Riff 3:
E---------------------------------|
B---------------------------------|
G---------------------------------|
D---------------------------------|
A-4444444444-555-333-555--------4-|
E-2222222222-333-111-333 x's 4--2-|
Related for Vaginal Incest - Cocks And Cunts tab