Guitaretab - guitar tabs
Song name
# A B C D E F G H I J K L M N O P Q R S T U V W X Y Z

Misc Unsigned Bands - Driving In Neutral - On My Own tab

				
heya Http://www.purevolume.com/drivinginneutral
                               Driving in Neutral
				    On my own

By: carson

Tuning Eb and dropped d

Guitar 1 intro x2 (alone) 
e|---------1------3p1--------------------1-----1h3-1-------------|
B|-----3-----3--------3-----3--------3-----3---------3-----3/5---|
G|-------2-----2--------2-2---2--------2-----2--------2-2--------|
D|-0-0---------------------------0-0-----------------------------|
A|---------------------------------------------------------------|
E|---------------------------------------------------------------|
 
e|---------------------------------------------------------------|
B|------5---5h6p5--------3---3h4p3p1-----------------------------|
G|--5-5---5-------5--3-3---3-------------------------------------|
D|---------------------------------------------------------------|
A|---------------------------------------------------------------|        
E|---------------------------------------------------------------|

[ Tab from: http://www.guitaretab.com/m/misc-unsigned-bands/50454.html ]
Guitar one intro continued x4			         
e|---------1-----3p1------------------1-----1h3-1-----------|
B|-----3-----3-------3-----3------3-----3----------3-----3--|
G|-------2-----2-------2-2---2------2-----2----------2-2---2|
D|-0-0-------------------------0-0--------------------------|
A|----------------------------------------------------------|
E|----------------------------------------------------------| 
Guitar 2 intro   *bass notes in ()*
e|------------------------------------------------------|
B|------------------------------------------------------|
G|--7-----------5------------3-------------5------------|
D|--7-----------5------------3-------------5------------|
A|-(5)---------(3)----------(1)-----------(3)-----------|
E|------------------------------------------------------|


Guitar Verse(figure out timing and muting by listenin)
e|-----------------------------------------------------|
B|--------------------------------6~----8~-------------|
G|--7---5---3-------5-----7---5---5~----7~-------------|
D|--7---5---3---3---5-----7---3---3~----5~-------------|
A|-(5)-(3)-(1)--3 (3)---(5)-(3)(1)---(3)-------------|
E|--------------3-------------------(1)----------------|
               (1)

Guitar Chorus (bass just follow bottom note of 1rst 4 chords like above)
e|-----------------------------------------|
B|-------------------------6---------------|
G|--7---3-------5---7---3--5--5------------|
D|--7---3---3---5---7---1--3--5------------|
A|--5---1---3---3---5---1-----3------------|
E|----------3------------------------------|
Related for Driving In Neutral - On My Own tab