Song name
# A B C D E F G H I J K L M N O P Q R S T U V W X Y Z

Misc Unsigned Bands - Ballkinks - Devils Words tab

ATTN: The Ballkinks is a punk rock band from the state of Connecticut in the
US. Check out their music at www.purevolume.com/millhouse (the band recently
had a name change from "Millhouse" to "The Ballkinks", as mentioned on that page. Thanks. 

"Devil's Words" tabbed out by: John Brackett
Tuning : E A D G B E 	Time Signature: 4/4


Intro:

|------------5---------------5---|------------3---------------5---|
|----5---------------5-----------|----5---------------5-----------|
|--------5---------------5-------|--------5---------------5-------|
|7---------------5---------------|3---------------5---------------|
|--------------------------------|--------------------------------|
|--------------------------------|--------------------------------|


|------------5---------------5---|------------3---------------5---|
|----5---------------5-----------|----5---------------5-----------|
|--------5---------------5-------|--------5---------------5-------|
|7---------------5---------------|3---------------5---------------|
|--------------------------------|--------------------------------|
|--------------------------------|--------------------------------|


|------------5---------------5---|------------3---------------5---|
|----5---------------5-----------|----5---------------5-----------|
|--------5---------------5-------|--------5---------------5-------|
|7---------------5---------------|3---------------5---------------|
|--------------------------------|--------------------------------|
|--------------------------------|--------------------------------|


|------------5---------------5---|------------3-------5-----------|
|----5---------------5-----------|----5-------------------5-------|
|--------5---------------5-------|--------5-------------------5---|
|7---------------5---------------|3---------------5---------------|
|--------------------------------|--------------------------------|
|--------------------------------|--------------------------------|


Verse:

|-----------------------------------------------------------------|
|-----------------------------------------------------------------|
|5h5--5-5-5p5--5-5-5--55--5--5-5-5--5-5-5---5---------------------|
|5h7--7-7-7p5--5-5-5--55--3--3-3-3--5-5-5---5h7p5-----------------|
|-----------------------------------------------------------------|
|-----------------------------------------------------------------|

Chorus:
|-----------------------------------------------------------------|
|-----------------------------------------------------------------|
|-----------------------------------------------------------------|
|7--7--7-7---5-5-5--55---3--3--3-3---5-5-5--55--------------------|
|7--7--7-7---5-5-5--55---3--3--3-3---5-5-5--55--------------------|
|5--5--5-5---3-3-3--33---1--1--1-1---3-3-3--33--------------------|

Riff 1:
|-----------------------------------------------------------------|
|-----------------------------------------------------------------|
|/5-4/2-0-0h2/4/5-------------------------------------------------|
|-----------------------------------------------------------------|
|-----------------------------------------------------------------|
|-----------------------------------------------------------------|
Tap to rate this tab
 
# A B C D E F G H I J K L M N O P Q R S T U V W X Y Z