Song name
# A B C D E F G H I J K L M N O P Q R S T U V W X Y Z

Misc Unsigned Bands - Millard Fillmore And The Chester A Arthurs - Toppins tab

Help us improve GuitareTab! Take a short survey!
this is a new band from colorado
Song: Toppin's
Band: Millard Fillmore and the Chester A. Arthurs

Intro & verse riff (used in all verses)

-----------------------------------|
-----------------------------------|
-----------------------------------|
---2-2-2-4-2-2-2-4-2-2-2-4-2-2-2-4-|
---2-2-2-2-2-2-2-2-2-2-2-2-2-2-2-2-|
---0-0-0---0-0-0---0-0-0---0-0-0---|

Chorus Riff (play 4x)

----------------------------------|
----------------------------------|
----------------------------------|
---2-2-2-2-2-7-7-7-7-4-4-4-4-4----|
---2-2-2-2-2-5-5-5-5-2-2-2-2-2----|
---0-0-0-0-0----------------------|

that's it that's the entire song it's the easiest song ever!  Millard Fillmore and the 
A. Arthurs are the best band ever!  Rock on!
Related for Millard Fillmore And The Chester A Arthurs - Toppins tab