Song name
# A B C D E F G H I J K L M N O P Q R S T U V W X Y Z

Misc Unsigned Bands - Manic Mailmen - The Really tab

My New Band 'The Manic Mailmen' here is one of the songs

A simple song to play

e-----------------|
B-----------------|
G-----------------|
D-----------------|  x3
A-6-6-5-5-6-6-5-5-|
E-0-0-0-0-6-6-0-0-|

e--12-13-12-------|
B-----------12----|
G-----------------|
D-----------------|  x2
A-----------------|
E-----------------|

e-----------------|
B-----------------|
G-----------------|
D-----------------|  x9
A-6-6-5-5-6-6-5-5-|
E-0-0-0-0-6-6-0-0-|

--12-13-12---------|
B-----------12-----|
G------------------|
D------------------|
A------------------|
E------------------|
Tap to rate this tab
# A B C D E F G H I J K L M N O P Q R S T U V W X Y Z