Song name
# A B C D E F G H I J K L M N O P Q R S T U V W X Y Z

Misc Unsigned Bands - Endarkend Evil Spirits - Satanic Desquad tab

Help us improve GuitareTab! Take a short survey!
Endarkend Evil Spirits is a Belgian metalgroup, West Flanders, Roeselaere.


----------------|
----------------|
----------------|
--7--7--7--7--5-|
--7--7--7--7--5-|
--5--5--5--5--3-|

----------------|
----------------|
----------------|
--7--7--7--7--5-|
--7--7--7--7--5-|
--5--5--5--5--3-|

----------------|
----------------|
----------------|
--5--5--5--5--7-|
--5--5--5--5--7-|
--3--3--3--3--5-|

----------------|
----------------|
----------------|
--5--5--5--5--7-|
--5--5--5--5--7-|
--3--3--3--3--5-|


 play it 6 times
enjoy it !
Related for Endarkend Evil Spirits - Satanic Desquad tab