Song name
# A B C D E F G H I J K L M N O P Q R S T U V W X Y Z

Misc Unsigned Bands - Alchemy - Changes tab

Help us improve GuitareTab! Take a short survey!
Alchemy is an awesome local band in Charlotte they do tours on the east coast and
play shows at big conventions...They are playing at the biggest Haley Davidson
store in the South East on September 11---That gives you a little info on this
band please submit my tab--------------------------
 Intro--

  E-|---------------------------------------------------------------------|
  A-|5-5-5-5-5-5-5-5-5-5-5-5-5-5-5-5---5-5-5-5-5-5-5-5--------------------|
  D-| 7-7-7-7-4-4-4-4-5-5-5-5-5-5-5-5---7-7-7-7-4-4-4-4--5-5-5-5-5-5-5-5--|
  G-|-----------------------------------------------------7-7-7-7-7-7-7-7-|
  B-|---------------------------------------------------------------------|
  E-|---------------------------------------------------------------------|


  E-|------------------------------------------------------3--------------|
  A-|5-5-5-5-5-5-5-5-5-5-5-5-5-5-5-5---5-5-5-5-5-5-5-5-------5------------|
  D-| 7-7-7-7-4-4-4-4-5-5-5-5-5-5-5-5---7-7-7-7-4-4-4-4--------5----------|
  G-|---------------------------------------------------------------------|
  B-|---------------------------------------------------------------------|
  E-|---------------------------------------------------------------------|

     Slight Pause...

    Verse--

  E-|-----------------5--5-5--5-5-5---------------7--7-7--7-7-7-----------|
  A-|----4--4--4-4-4--3--3-3--3-3-3--5--5--5-5-5--5--5-5--5-5-5-----------|
  D-|----2--2--2-2-2--3--3-3--3-3-3--7--7--7-7-7--5--5-5--5-5-5-----------|
  G-|----2--2--2-2-2-----------------7--7--7-7-7--------------------------|
  B-|---------------------------------------------------------------------|
  E-|---------------------------------------------------------------------|

  E-|-----------------5--5-5--5-5-5---------------------------------------|        X-3
  A-|----4--4--4-4-4--3--3-3--3-3-3--5--5--5-5-5------7--7--7-7-7--7--7-- |
  D-|----2--2--2-2-2--3--3-3--3-3-3--7--7--7-7-7------9--9--9-9-9--9--9---|
  G-|----2--2--2-2-2-----------------7--7--7-7-7------9--9--9-9-9--9--9---|
  B-|---------------------------------------------------------------------|
  E-|---------------------------------------------------------------------|


    Post Chorus--

  E-|----7-7-7---------------------7-7-7----------------------------------|
  A-|----9-9-9--8---7-7-7--5-5-5---9-9-9--8---7-7-7--10-10-10-------------|
  D-|-----------10--9-9-9--7-7-7----------10--9-9-9--12-12-12-------------|
  G-|---------------------------------------------------------------------|
  B-|---------------------------------------------------------------------|
  E-|---------------------------------------------------------------------|


  E-|----7-7-7---------------------7-7-7----------------------------------|
  A-|----9-9-9--8---7-7-7--5-5-5---9-9-9--8---7-7-7--7-7-7----------------|
  D-|-----------10--9-9-9--7-7-7----------10--9-9-9--9-9-9----------------|
  G-|---------------------------------------------------------------------|
  B-|---------------------------------------------------------------------|
  E-|---------------------------------------------------------------------|


    Verse--X-2

    Chorus--

  E-|-------------------------------3--3--3-3-3--------------|
  A-|--7--7--7-7-7---4-4--4-4-4-4---5--5--5-5-5--5--5--5-5-5-|
  D-|--9--9--9-9-9---2-2--2-2-2-2---5--5--5-5-5--7--7--7-7-7-|
  G-|--9--9--9-9-9---2-2--2-2-2-2----------------7--7--7-7-7-|
  B-|--------------------------------------------------------|
  E-|--------------------------------------------------------|           X-2

  E-|-------------------------------3--3--3-3-3-\\-5--5--5-5-|
  A-|--7--7--7-7-7---4-4--4-4-4-4---5--5--5-5-5-\\-7--7--7-7-|
  D-|--9--9--9-9-9---2-2--2-2-2-2---5--5--5-5-5-\\-7--7--7-7-|
  G-|--9--9--9-9-9---2-2--2-2-2-2----------------------------|
  B-|--------------------------------------------------------|
  E-|--------------------------------------------------------|


  Post Chorus--


  Chorus-X-2


 Verse Riff - X-1

 Then Short Solo--

 E-|-------------------------------------------------------------------|
 A-|-------------------------------------------------------------------|
 D-|----------------------------------------------------------------5--|
 G-|--4-0-0-0-0-0-0-7-2-2-2-2-2-2-4-0-0-0-0-0-0-2-2-2-4-4-4-4h5p4-2-0--|
Related for Alchemy - Changes tab