Guitaretab - guitar tabs
Song name
# A B C D E F G H I J K L M N O P Q R S T U V W X Y Z

Misc Unsigned Bands - Mst For Life - Do It So tab

artist:MST for life
title:do it so
BY:oscar torres

this tab is by my unsigned band we are just sending this sample of our first song. so 
make fun of it.

you can play this with any string but it has to be with these tabs but we perfer you 
it like this. play this in the begining alone x2 the then keep playing until the end of the 
with the bass
e ---------------------------------------------------------|
b ---------------------------------------------------------|
g --------3--------3---------------------------------------|
d ------4---4---4----4-------------------------------------|   x2
a --3-3-------3--------------------------------------------|
e ---------------------------------------------------------|
[ Tab from: ]
---------------------------|play this after the intro and straight out ok
-44444-33333-22222-4-5-4---|play this slow. play with chorus also

this comes in with the bass just copy the bass
e -4-4-4-4-4--3-3-3-3-3--2-2-2-2-2--4-5-4----|
b -4-4-4-4-4--3-3-3-3-3--2-2-2-2-2--4-5-4----|play thi also with the chorus
g -------------------------------------------|
d -------------------------------------------|
a -------------------------------------------|
e -------------------------------------------|


e -3-3-3-3-3--5-5-5-5-5--4-4-4-4-4--6-6-6-6-6---------------|
b -3-3-3-3-3--5-5-5-5-5--4-4-4-4-4--6-6-6-6-6---------------|
g ----------------------------------------------------------|
d ----------------------------------------------------------|
a ----------------------------------------------------------|
e ----------------------------------------------------------|

well thats it for this song more will come soon
I am looking for a drumer for my band for more information email me at
looking around the ages of 13-15
Related for Mst For Life - Do It So tab