Guitaretab - guitar tabs
Song name
# A B C D E F G H I J K L M N O P Q R S T U V W X Y Z

Misc Unsigned Bands - Schoolyard Heroes - Dawn Of The Dead tab

-------------------------------------------------------------------------------
			DAWN OF THE DEAD - Schoolyard Heroes
-------------------------------------------------------------------------------

This is a recent Seattle-area band that plays rock with elements of punk and metal.

Tabbed by: axesoi
Email: axesoi@hotmail.com

Tuning: Drop D

Riff A
e|----------------------------------------------------------------------------|
B|----------------------------------------------------------------------------|
G|----------------------------------------------------------------------------|
d|----------------------------------------------------------------------------|
A|-5-5-4-(4444444444)-5-5-4-(4444444444)-5-5-2-(2222222222)-5-5-2-(2222222222)|
D|-5-5-4(4444444444)-5-5-4-(4444444444)-5-5-2-(2222222222)-5-5-2-(2222222222)|

Riff B
e|---------------------------------------------------------------------------|
B|---------------------------------------------------------------------------|
G|---------------------------------------------------------------------------|
d|---------------------------------------------------------------------------|
A|-5-5-444444444444-5-5-444444444444-5-5-222222222222-5-5-222222222222-------|
D|-5-5-444444444444-5-5-444444444444-5-5-222222222222-5-5-222222222222-------|
[ Tab from: http://www.guitaretab.com/m/misc-unsigned-bands/50943.html ]
Riff C
e|-------------------------------|
B|-------------------------------|
G|-------------------------------|
d|-------------------------------|
A|-5-5-4---5-5-4---5-5-2---5-5-2-|
D|-5-5-4---5-5-4---5-5-2---5-5-2-|

Riff D
e|---------------------------------|
B|---------------------------------|
G|---------------------------------| Play this through three times, and the
d|---------------------------------| fourth time, just play one of the 2's.
A|-7-7-7-7-9-9-9-9-2-2-2-2-2-2-2-2-|
D|-7-7-7-7-9-9-9-9-2-2-2-2-2-2-2-2-|

Riff E Part I

e|------------------|
B|------------------|
G|------------------| Play this three times.
d|------------------|
A|------------------|
D|-2-2-4-2-5-2--7/9-|

Riff E Part II

e|-----------------------------------|
B|-----------------------------------|
G|-----------------------------------|
d|-----------------------------------|
A|-----------------------------------|
D|-2-2-4-2-5-2--7/9--8-8-8-8-8-8-8-8-|
Riff F Part I

e|------------------|
B|------------------|
G|------------------| Play this three times.
d|------------------|
A|-2-2-4-2-5-2--7/9-|
D|-2-2-4-2-5-2--7/9-|

Riff F Part II

e|--------------------------------------|
B|--------------------------------------|
G|--------------------------------------|
d|--------------------------------------|
A|-2-2-4-2-5-2--7/9--8-8-8-8-8-8-8-8--2r|
D|-2-2-4-2-5-2--7/9--8-8-8-8-8-8-8-8--2r|

As for the order of the riffs in this song, I'm sure that even a chimpanzee could figure them out. Enjoi

| /    Slide Up
| #r   Let it Ring
| (#)  Palm Mute
===============================================================================
Related for Schoolyard Heroes - Dawn Of The Dead tab