Song name
# A B C D E F G H I J K L M N O P Q R S T U V W X Y Z

Misc Unsigned Bands - Pyschosis - Death tab

Help us improve GuitareTab! Take a short survey!
this is crazy its a local band but they are awesome man (drop d tuning)
band is called psychosis they have 5 members 1 guitarist, 1 bassist, 1 drummer,
1 vocalist, and 1 keyboardist, they have been playing for 6 months and are pretty
good they dont have a cd out yet but they will be releasing one in december they
have to finish practicing and writing more songs first though because they only
have 5 or 6 full songs

Interlude/prelude to solo

|----------------------------------------------------------------------------|
|----------------------------------------------------------------------------|
|----------------------------------------------------------------------------|
|----------------------------------------------------------------------------|
|--------------------------------------1111111123411156-1111111123415624--00-|
|-0-1-0-2-0-0-0-1-1-0-1-0-334-00-12145---------------------------------------|

solo

|-1414141415151617141312121110191817151814-----------------------------------|
|------------------------------------------11111111-12-1515-16-10-5-7-88-3-1-|
|----------------------------------------------------------------------------|
|---11------13----11-----14------17-----11-----------------------------------|
|----------------------------------------------------------------------------|
|----------------------------------------------------------------------------|

|-12121212108-555584379854267-10101010-1114-11---11-------------------------|
|---------------------------------------------121413161715------------------|
|---------------------------------------------------------------------------|
|---------------------------------------------------------------------------|
|---------------------------------------------------------------------------|
|---------------------------------------------------------------------------|
Related for Pyschosis - Death tab