Guitaretab - guitar tabs
Song name
# A B C D E F G H I J K L M N O P Q R S T U V W X Y Z

Misc Unsigned Bands - Pepper - Boot tab

This is a new band, their sound is a lot like Sublime
Artist: Pepper
Song: B.O.O.T
Album: Kona Town

Intro played twice

E-------------------------------------------------|
B-------------------------------------------------|
G-------------------------------------------------|
D------------------------------6-4-2-------6-4-2--|
A-----6-4-2--------6-4-2----4---------4444--------|
E--4-----------4444-------------------------------|


E-------------------------------------------------------|
B-------------------------------------------------------|
G-------------------------------------------------------|
D--------9--8---------7--6------------------------------|
A--6666---------4444-------------6-4-2---------6-4-2----|
E-----------------------------4----------4444-----------|

Verse

Play over and over, muted upstrokes
e---4-----------------------------|
B---4-----------------------------|
G---5-----------------------------|
D---------------------------------|
A---------------------------------|
E---------------------------------|

?so when the dance gets hot...?

E---------------------------------|
B---------------------------------|
G---------------------------------|
D-------------------------6-------|
A-----------6-----4---7-----------|
E---4---7-------------------------|

Solo
[ Tab from: http://www.guitaretab.com/m/misc-unsigned-bands/50969.html ]
E-----------------------------------------------------|
B---------------------------------------------797-----|
G---------------------------------4--6--6b-4----------|
D---------------4--6--------4--6----------------------|
A---------4--6--------4--6----------------------------|
E---4--7----------------------------------------------|

E-----------------------------------------------------|
B---4--------------------------------------------4-4--|
G-----6-4-464------------------------------------4-4--|
D--------------6-4---4-4-----------4-----464---4------|
A------------------6---------6-4-6---4-6-----6--------|
E--------------------------7--------------------------|

e---14-------14-----------------------------11--------|
B------12-11----12-111211-14-12-11----11-12----12-----|
G----------------------------------13-----------------|
D-----------------------------------------------------|
A-----------------------------------------------------|
E-----------------------------------------------------|

e--------------------------------------------------|
B--------------------------------------------------|
G-------6---6-8-6----------------------------------|
D---6-9---9-------9-8-9-8-6-8-9-8-6-8-9-8---6------|
A-----------------------------------------9--------|
E--------------------------------------------------|
Related for Pepper - Boot tab