Song name
# A B C D E F G H I J K L M N O P Q R S T U V W X Y Z

Misc Unsigned Bands - Pepper - Stone Love tab

Pepper- Stone Love


Standard tuning

\-slide down
/-slide up            
                                   
Intro (played by bass)
E||----------------------------------------|
B||----------------------------------------|
G||----------------------------------------|
D||----------------------------------------|
A||--4----4--6--7\-------------------2---2-|
E||-----4------------0--2--4---4-------4---|

Verse (clean,ska-ish strum)
E||------------|
B||------------|
G||--6----8----|
D||--6----6----|
A||--4----6----|
E||------------|

Fill Verse I                     
E||--4----2--0----|
B||------------4--|
G||---------------|
D||---------------|
A||---------------|
E||---------------|


Verse II
E||------------|
B||------------|
G||--6----8----|
D||--6----6----|
A||--4----6----|
E||------------|

Fill Verse II [2:38]
(repeat til end)
E||-----------------------|
B||-----------------------|
G||--6/-8--8----6/-8-8----|
D||--6/-8--8----6/-8-8----|
A||-----------------------|
E||-----------------------|
Tap to rate this tab
 
# A B C D E F G H I J K L M N O P Q R S T U V W X Y Z