Song name
# A B C D E F G H I J K L M N O P Q R S T U V W X Y Z

Misc Unsigned Bands - Taken - New Tattoo tab

Taken is sort of a new band out of Orlando, Florida started by some high school kids and 
screwed around and wrote not half bad stuff.


Song: New Tattoo
Artist: Taken

(Intro) Kind of a punk rock intro strumming each one for a four count.

e----------------------------------------------------------------------|
b----------------------------------------------------------------------|
g----------------------------------------------------------------------|
d---2----9----11----7----10--------------------------------------------|
a---2----9----11----7----10--------------------------------------------|
e---0----7----9-----5----8---------------------------------------------|

Breakdown

e----------------------------------------------------------------------|
b----------------------------------------------------------------------|
g----------------------------------------------------------------------|
d---11----9----7----2----11----9----7----2-----------------------------|
a---11----9----7----2----11----9----7----2-----------------------------|
e---9-----7----5----0----9-----7----5----0-----------------------------|


Its kind of a punk/ska song so just think of beginnings and ends and they all sound 
the same and you got it.
Tap to rate this tab
 
# A B C D E F G H I J K L M N O P Q R S T U V W X Y Z