Song name
# A B C D E F G H I J K L M N O P Q R S T U V W X Y Z

Misc Unsigned Bands - Numskulls - Franticness tab

First, im gonna say something.
The Numskulls are a young band from Germany.
This tab is produced by me, the man with a guitar@numskulls.
It is ONLY the rhythm guitar, nothing else.
Its a bit shitlike, because my editor is some kind of fucking puke.
bye,
Reschke

                                                    Franticness
Rhythm Guitar

Intro

e-----------|-----------|-----------|-----------|-----------|-----------|-----------|-----------|---------------|
h-----------|-----------|-----------|-----------|-----------|-----------|-----------|-----------|---------------|
g-----------|-----------|-----------|-----------|-----------|-----------|-----------|-----------|---------------|
d-----------|-----------|-----------|-----------|-----------|-----------|-----------|-----------|---------------|
a-3-333333--|-4-444444--|-3-333333--|-2-222222--|-3-333333--|-4-444444--|-3-333333--|-2-2222222-|22222----------|
E-3-333333--|-4-444444--|-3-333333--|-2-222222--|-3-333333--|-4-444444--|-3-333333--|-2-2222222-|22222----------|
    p.m.         p.m.        p.m.        p.m.        p.m.        p.m.        p.m.        
p.m.  |
                                                                                         
      p.m. ende
                                                                                         
      seiten schnell
                                                                                         
      anspielen

e-----------|-----------|-----------|-----------|-----------|-----------|-----------|-----------|---------------|
h-----------|-----------|-----------|-----------|-----------|-----------|-----------|-----------|---------------|
d-----------|-----------|-----------|-----------|-----------|-----------|-----------|-----------|---------------|
a-3-333333--|-4-444444--|-3-333333--|-2-222222--|-3-333333--|-4-444444--|-3-333333--|-2-222222--|---------------|
E-3-333333--|-4-444444--|-3-333333--|-2-222222--|-3-333333--|-4-444444--|-3-333333--|-2-222222--|---------------|

Strophe 1

e-----------|-----------|-----------|-----------|-----------|-----------|-----------|-----------|---------------|
h-----------|-----------|-----------|-----------|-----------|-----------|-----------|-----------|---------------|
d-----------|-----------|-----------|-----------|-----------|-----------|-----------|-----------|---------------|
a-3-333333--|-4-444444--|-3-333333--|-2-222222--|-3-333333--|-4-444444--|-3-333333--|-2-222222--|---------------|
E-3-333333--|-4-444444--|-3-333333--|-2-222222--|-3-333333--|-4-444444--|-3-333333--|-2-222222--|---------------|
    p.m.         p.m.        p.m.        p.m.        p.m.        p.m.        p.m.        
p.m.

Refrain

e-----------|-----------|-----------|-----------|-----------|-----------|-----------|-----------|---------------|
h-----------|-----------|-----------|-----------|-----------|-----------|-----------|-----------|---------------|
d-----------|-----------|-----------|-----------|-----------|-----------|-----------|-----------|---------------|
a-3-333333--|-4-444444--|-3-333333--|-2-222222--|-3-333333--|-4-444444--|-3-333333--|-2-222222--|---------------|
E-3-333333--|-4-444444--|-3-333333--|-2-222222--|-3-333333--|-4-444444--|-3-333333--|-2-222222--|---------------|

Strophe 2

e-----------|-----------|-----------|-----------|-----------|-----------|-----------|-----------|---------------|
h-----------|-----------|-----------|-----------|-----------|-----------|-----------|-----------|---------------|
d-----------|-----------|-----------|-----------|-----------|-----------|-----------|-----------|---------------|
a-3-333333--|-4-444444--|-3-333333--|-2-222222--|-3-333333--|-4-444444--|-3-333333--|-2-2222222-|---------------|
E-3-333333--|-4-444444--|-3-333333--|-2-222222--|-3-333333--|-4-444444--|-3-333333--|-2-2222222-|---------------|
    p.m.         p.m.        p.m.        p.m.        p.m.        p.m.        p.m.        
p.m.

Refrain

e-----------|-----------|-----------|-----------|-----------|-----------|-----------|-----------|---------------|
h-----------|-----------|-----------|-----------|-----------|-----------|-----------|-----------|---------------|
d-----------|-----------|-----------|-----------|-----------|-----------|-----------|-----------|---------------|
a-3-333333--|-4-444444--|-3-333333--|-2-222222--|-3-333333--|-4-444444--|-3-333333--|-2-2222222-|---------------|
E-3-333333--|-4-444444--|-3-333333--|-2-222222--|-3-333333--|-4-444444--|-3-333333--|-2-2222222-|---------------|

Outro

e-----------|-----------|-----------|-----------|-----------|-----------|--------------------|-----------|
h-----------|-----------|-----------|-----------|-----------|-----------|--------------------|-----------|
g-----------|-----------|-----------|-----------|-----------|-----------|--------------------|-----------|
d-----------|-----------|-----------|-----------|-----------|-----------|--------------------|-----------|
a-5555------|-3333------|-2222222---|-3333------|-5555------|55-33-55-22|-55-333-2-33-00~~~~~|-----------|
E-5555------|-3333------|-2222222---|-3333------|-5555------|55-33-55-22|-55-333-2-33-00~~~~~|-----------|
                                                                  p      p            
lassen
                                                                  a      a
                                                                  u      u
                                                                  s      s
                                                                  e      e


During: ca. 2:30 min.
Tap to rate this tab
 
# A B C D E F G H I J K L M N O P Q R S T U V W X Y Z