Song name
# A B C D E F G H I J K L M N O P Q R S T U V W X Y Z

Misc Unsigned Bands - Nurl - Pink Elephants tab

Another song with surreal lyrics by the unsigned south London Punk band The Nurl

PINK ELEPHANTS: ALex McDowell/Simon Byrne

INTRO
e---------12-15-14-15-17-19-15-12-0-12-12-12-15-15-12-0-| Play twice
b-------------------------------------------------------|
g-------------------------------------------------------|
d-------------------------------------------------------|
a-------------------------------------------------------|
e-0-3-2-0-----------------------------------------------|

Verse:
e-------------------------------------------------|
b-------------------------------------------------|
g-------------------------------------------------|
d-2---2--2-2-2---2--2-2---------------------------|  Repeat this every verse
a-2---2--2-2-2---2--2-2-----6---6--6-6-6---6--6-6-|
e-0---0--0-0-0---0--0-0-----7---7--7-7-7---7--7-7-|

Medical Man Blade in hand Watching me sleep counting sheep
He took me on a ride to the dark side, Support group speaker he's my keeper

CHORUS:
e------------------------------------|
b------------------------------------|
g------------------------------------|
d------------------------------2-2-2-|
a------------------------------2-2-2-|
e------------------------------0-0-0-|

Pink elephants fighting my mind (Guitar above played after vocal)
Pink Elephants eating my mind
Pink Elephants taking my mind

INTRO again!
Verse:
A huge polar bear burning my hair,an antelope spits and begins to stare
Blinding surprise burning my eyes, Drunk on the new while taking a snooze!

Chorus again

Verse:
Something went down meeting a clown, on the way to a pub or a dingy club
I can't escape from my eternal fate, and now i've seen an elemental queen

Chorusx2
END
Tap to rate this tab
# A B C D E F G H I J K L M N O P Q R S T U V W X Y Z