Song name
# A B C D E F G H I J K L M N O P Q R S T U V W X Y Z

Misc Unsigned Bands - Pomeroy - Roboflow tab

---------------|real cool rap rock band i saw at the clark street fair in chicago
check em out!--|
			     SONG NAME - Band Name
------------------------------roboflow------pomeroy-------------------------------------------
Tabbed by: kabukimono
Email: kabukimono@sbcglobal.net

Tuning: standard                   lots of distortion, make it sound robotic

e|-------------------------------------------------------------------------------|
B|----------5---5---5--------3-----------5----5----6----5------------------------|
G|----------5---5---5--------3-----------5----5----6----5------------------------|
D|---3------------------------------3--------------------------------------------|
A|---3------------------------------3--------------------------------------------|
E|-------------------------------------------------------------------------------|

e|---------------------------------------------------------------------------------|
B|-----------5----5-------3-----------5-----6--------------------------------------|
G|-----------5----5-------3-----------5-----6--------------------------------------|
D|-----3-------------------------3-------------------------------------------------|
A|-----3-------------------------3-------------------------------------------------|
E|---------------------------------------------------------------------------------|

| /  slide up
| \  slide down
| h  hammer-on
| p  pull-off
| ~  vibrato
| +  harmonic
| x  Mute note
===============================================================================
Tap to rate this tab
 
# A B C D E F G H I J K L M N O P Q R S T U V W X Y Z