Guitaretab - guitar tabs
Song name
# A B C D E F G H I J K L M N O P Q R S T U V W X Y Z

Misc Unsigned Bands - The Last Whisper - One Last Tear tab

This is a new band from England. Visit their site www.freewebs.com/the_last_whisper


Intro

E---------------------------------------------|
B---------------------------------------------|
G-----0-0-----0-0-----0-0-----0-0-------------|
D---0--0-0---0-0-0---0-0-0---0-0-0------------| X2
A--2--------2-------3-------5-----------------|
E-3--------0-------0-------5------------------|


Verse  (you have to listen to it to get the timing right
[ Tab from: http://www.guitaretab.com/m/misc-unsigned-bands/51105.html ]
E--------------------------------------|
B---0---0---0--------------------------|
G-0-0-0-0-0-0-0------------------------|
D-0-2-0-2-0-2-0------------------------| X2
A-2-3-2-3-2-3-5------------------------|
E-3---3---3---5------------------------|

Chorus
D                      Am
The end is near        I feel it coming
G                           Am
But im not guna turn around and star running
D                                     Am
gunna face my destiny                 face my fear
G                                        Am
i aint guna hurt n e more                 but shed one last tear


The order goes Intro...Verse..Chorus...Verse...Chorus...Chorus...Intro
Related for The Last Whisper - One Last Tear tab
×
The Last Whisper - One Last Tear