Song name
# A B C D E F G H I J K L M N O P Q R S T U V W X Y Z

Misc Unsigned Bands - The Envirocides - Dirt Man tab

                                Dirt Man
                         {new band} The Envirocides
Intro: x4
|-0-0-0-0-----------0-0-0----------0-0----|
|---------2-4-3-1-2-------12-14-17--------|
|-----------------------------------------|
|-----------------------------------------|
|-------------------------------------0---|
|--------------------------------------7--|
Chorus: x3
|-------------------------17--------------|
|---------4-2-2---0-----------------------|
|--12--0--------0-------------0-0---------|
|------------------12--16-----------------|
|------------------------------------0----|
|------------------------------------7----|
Ending: x1
|-0-0-0------------8------------------0---|
|---------------9-----7-3-2-1-------------|
|-------------0---------------------------|
|------0-7-4------------------------------|
|-----------------------------------------|
|------------------------------0--0-------|

Enjoy and thaxs!!!
Submited By Cokedenney E mail me at Cokacola123bear@aol.com
Tap to rate this tab
# A B C D E F G H I J K L M N O P Q R S T U V W X Y Z