Song name
# A B C D E F G H I J K L M N O P Q R S T U V W X Y Z

Misc Unsigned Bands - Virgo - The Wall tab

Upcoming danish band - www.virgomusic.dk


-----------------------------------------------------------------------
                            Virgo - The wall
-----------------------------------------------------------------------

Verse:
e---7---------7--------------------------------------------------------|
b---8---------7--------------------------------------------------------|
g---9---------7--------------------------------------------------------|
d---9----5----9--------------------------------------------------------|
a---7----5----9--------------------------------------------------------|
E--------3----7--------------------------------------------------------|

Prechorus:

e----------------------------------------------------------------------|
b----------------------------------------------------------------------|
g----------------------------------------------------------------------|
d-----9999999--7777777-------------------------------------------------|
a-----9999999--7777777-------------------------------------------------|
E-----7777777--5555555-------------------------------------------------|

Chorus:

e---777--777-7-----------------------------------777--777-7------------|
b---888--888-8-----------------------------------888--888-8------------|
g---999--999-9-----------------------------------999--999-9------------|
d---999--999-9--555-555-5--999-999-9--777-777-7--999--999-9------------|
a---777--777-7--555-555-5--999-999-9--777-777-7--777--777-7------------|
E---------------333-333-3--777-777-7--555-555-5------------------------|


e----------------------------------------------------------------------|
b----------------------------------------------------------------------|
g----------------------------------------------------------------------|
d---555-555-5--999-999-9--999-999-9------------------------------------|
a---555-555-5--999-999-9--999-999-9------------------------------------|
E---333-333-3--777-777-7--777-777-7------------------------------------|

Tabbed by Joe'han (krusborg87@hotmail.com)
Tap to rate this tab
 
# A B C D E F G H I J K L M N O P Q R S T U V W X Y Z