Song name
# A B C D E F G H I J K L M N O P Q R S T U V W X Y Z

Misc Unsigned Bands - The Envirocides - Vinly Metal tab

Vinyl Metal
*new Band*
                            Tabbed By Cokedenney

Crank up your distortion baby and let it rip!!!
Play it loud and fast.
Intro: x3
|-12-------------8-------------21--------------------------0---------|
|-------14---------------------------2---------------------0---------|
|------------7---------------------------3-----------------0---------|
|------------7------------19-----------------7-------------0---------|
|----------------------------------------------------------3---------|
|--------------------0-------------------------------------2---------|

Chorus: x2
|----------------------------7--------9--0----------8----------------|
|-------------------------------8------------------------------------|
|------20---------------12-----------------------------3-------------|
|---19--------------13-----------------------------------------------|
|-----------14----------------------------------0--------------------|
|--------------16-------------------------------------------0--------|

Outro: repeat 1
|-------------------------------------------0-----------------x------|
|-----------------------------------7-------------------------x------|
|-----------------------0-------------------------------------0------|
|--------------------9-----------------0----------2-----------7------|
|----------12--11---------6-------------------3--0------------0------|
|---17--13---------8--------------------0---------------------0------|

Tabbed By: Cokedenney
Rock on & have fun!!!
Tap to rate this tab
 
# A B C D E F G H I J K L M N O P Q R S T U V W X Y Z