Guitaretab - guitar tabs
Song name
# A B C D E F G H I J K L M N O P Q R S T U V W X Y Z

Misc Unsigned Bands - Kelly James - Ment To Be Together tab

James Kelly is a brand New artist from Burlington Ontario.  His First
Cd will be out before the end of August.  Get ready for his New Cd called
"Mystery".  It will have 5-8 songs, not too sure yet.  So get ready! Ment to
Be Together is one of his Best.


Verse 1

I've been falling, in love with you........
|--------------7-----4-----2------|
|---9----9----0-----0-----0-------|
|---9----9----9-----6-----4-------|
|---7----9----9-----6-----4-------|
|---------------------------------|
|---------------------------------|

Bridge
[ Tab from: http://www.guitaretab.com/m/misc-unsigned-bands/51424.html ]
|------------------------------------|
|---12------9------12-------12-------|
|---9--------9------9--------14------|
|---11------7------11-------14-------|
|------------------------------------|
|------------------------------------|

Chorus

We were ment to be together, Forever
|--------------------------------------------|
|--------------------------------------------|
|---4------6------2--------------------------|
|---4------6------2--------------------------|
|---2------4---------------------------------|
|--------------------------------------------|

Play Verse and Bridge again

Chorus

2nd Bridge

For so long I've been..........
|-----------------------------------|
|-----------------------------------|
|---11--------13-------14-----------|
|---11--------13-------14-----------|
|---9----------11-------12----------|
|-----------------------------------|
Back to chorus 2x

That's it. Solid song, play away.
Related for Kelly James - Ment To Be Together tab