Song name
# A B C D E F G H I J K L M N O P Q R S T U V W X Y Z

Misc Unsigned Bands - Single Stroke 7 - Screwin Around tab

e|----------------------------8----------------------89--------------------|
B|------------------------8------8--------------9-0-9----tr~9~-------------|
G|-------------------7-8-----------8---------------12----------------------|
D|-----------------7-----------------8---------------88--------------------|
A|-----67666-7--8----------------------8-------------8---------------------|
E|----6-6-----8--7-----------------------8---------------------------------|

e|--------------------------------------------------------1234535467456----|
B--------------------------------------------------------------------------|
G|------------------------------------------------23546--------------------|
D|---------------------------------------436789------------234657----------|
A|---------------------23456789874-----------------------------------------|
E|--123456789--------------------------------------1347806-----------------|


if u can figure this out then u rock this is my bands song
Tap to rate this tab
# A B C D E F G H I J K L M N O P Q R S T U V W X Y Z