Song name
# A B C D E F G H I J K L M N O P Q R S T U V W X Y Z

Misc Unsigned Bands - Bagage - Pain And Destruction tab

Bagage is a new band who will rule the world

A -------------------------------------------------------------------|
B -------------------------------------------------------------------|
C -------------------------------------------------------------------|
D ---6-6-6-6-6-6--9-9-9-9-9-9--14-14-14-14-14-14--11-11-11-11-11-11--|
E ---6-6-6-6-6-6--9-9-9-9-9-9--14-14-14-14-14-14--11-11-11-11-11-11--|
F ---4-4-4-4-4-4--7-7-7-7-7-7--12-12-12-12-12-12---9--9--9--9--9--9--| X4


A -------------------------------------------------------------------|
B -------------------------------------------------------------------|
C -------------------------------------------------------------------|
D --11-11-11-11-11-11--14-14-14-14-14-14--7-7-7-7-7-7--4-4-4-4-4-4---|
E --11-11-11-11-11-11--14-14-14-14-14-14--7-7-7-7-7-7--4-4-4-4-4-4---|
F ---9--9--9--9--9--9--12-12-12-12-12-12--5-5-5-5-5-5--2-2-2-2-2-2---| X2


A -------------------------------------------------------------------|
B -------------------------------------------------------------------|
C -------------------------------------------------------------------|
D ---6-6-6-6-6-6--9-9-9-9-9-9--14-14-14-14-14-14--11-11-11-11-11-11--|
E ---6-6-6-6-6-6--9-9-9-9-9-9--14-14-14-14-14-14--11-11-11-11-11-11--|
F ---4-4-4-4-4-4--7-7-7-7-7-7--12-12-12-12-12-12---9--9--9--9--9--9--| X2
Tap to rate this tab
 
# A B C D E F G H I J K L M N O P Q R S T U V W X Y Z