Song name
# A B C D E F G H I J K L M N O P Q R S T U V W X Y Z

Misc Unsigned Bands - Morelli Reed - The Angry Russian tab

Reed Morelli is in an up and coming local band from Golden,Colorado and this song is
one of his early solo works

The angry russian

-------------------|----4-3/1-0-1----------------------|
-1-0-1-0-1-3-3/4-3|------------------------------------|
-------------------|-----------------------------------|
-------------------|-----------------------------------|
-------------------|-----------------------------------|
-------------------|-----------------------------------|
  Repeat three times
|------------------|


---------1-0---------1-0------1--0--3--0--1-------1h3-0------------|
-------3-----------3-----3----3--3--3--3--3------3------3----------|
---0h2---------0h2------------2--2--2--2--2-----2---------2--------|  Keep Repeating
-0-----------0----------------0--0--0--0--0----0------------0------|
-------------------------------------------------------------------|
-------------------------------------------------------------------|

sergio was an angry man
got himself thrown from the mother land
picked himself up and then he ran
to the liquor store for some vodka

sergio was in a russian mess
they took him in and made him confess
to running out of the liquor store
with a great big bottle of vodka

Repeat intro

fine'

"you thought you were there to guide me you were only in my way" - song lyric
Tap to rate this tab
# A B C D E F G H I J K L M N O P Q R S T U V W X Y Z