Song name
# A B C D E F G H I J K L M N O P Q R S T U V W X Y Z

Misc Unsigned Bands - Rusty Barbed Wire - Palm tab

This Band is a newly formed band by Alex(me), Steven, and Chelsea. We are still looking 
a drummer though. Now we are working on our first song!
This song is right on the money because i wrote it!   Friday 8/20/04

Intro:        Pre Corus:
E---------]---------------------------------------------------------|
B---------]---------------------------------------------------------|
G---------]---------------------------------------------------------|
D---2~~---]---0-00-00-20----0-00-00-30------------------------------|
A---------]---------------------------------------------------------|
E---------]---------------------------------------------------------|

Corus:
E-------------------------------------------------------------------|
B-------------------------------------------------------------------|
G-------------------------------------------------------------------|
D-------------------------------------------------------------------|
A-----------------------0-00-00---3-33-33---------------------------|
E---0-00-00---3-33-33-----------------------------------------------|

Solo:
E-------------------------------------------------------------------|
B-------------------------------------------------------------------|
G---------------------0-----]-----202020----202020------------------|
D---202020-----202020-----x2-------------0---------2----------------|
A----------0----------------]---------------------------------------|
E-------------------------------------------------------------------|

E-------------------------------------------------------------------|
B-------------------------------------------------------------------|
G------------------------]--------------------0---------------------|
D---202020----202020-----]---202020----202020-----x2----------------|
A----------0---------2---]----------0-------------------------------|
E-------------------------------------------------------------------|


Outro Chord:
E-------------|
B-------------|
G------0------|
D------0------|
A------10-----|
E------10-----|
Tap to rate this tab
 
# A B C D E F G H I J K L M N O P Q R S T U V W X Y Z