Song name
# A B C D E F G H I J K L M N O P Q R S T U V W X Y Z

Misc Unsigned Bands - Harlots - Alien tab

The Harlots are a four piece band from winnipeg CANADA! 1st self titled cd
came out in 1999 followed by sophomore album Cawl Spcaes in 2003.
The Harlots are:  Buck Garinger-vocals, rhythm guitar
                  Lane Bradley Garinger-lead guitar, vocals 
                  Lee Charles Garinger-bass guitar, vocals and
                  Mark Sawatzky-drums 
===========================================================================
song: Alien
band: The Harlots
Tuning:standard

e|----------------|-------------|-----------|----------------------------|
B|----------------|-------------|-----------|----------------------------|
G|----------------|-------------|-----------|----------------------------|
D|---5--4--2---7--|----2--4--5--|--4--2--7--|-2--4-----------------------|
A|---5--4--2---7--|----2--4--5--|--4--2--7--|-2--4-----------------------|
E|---3--2--0---5--|----0--2--3--|--2--0--5--|-0--2-----------------------|

e|----------------|-------------|-----------|----------------------------|
B|----------------|-------------|-----------|----------------------------|
G|----------------|-------------|-----------|----------------------------|
D|---5--4--2---7--|----2--4--5--|--4--2--7--|-2--4-----------------------|
A|---5--4--2---7--|----2--4--5--|--4--2--7--|-2--4-----------------------|
E|---3--2--0---5--|----0--2--3--|--2--0--5--|-0--2-----------------------|

e|-----------------------------------------------------------------------|
B|-----------------------------------------------------------------------|
G|--7777777777777777--4444444444444444-----------------------------------|
D|--7777777777777777--4444444444444444--5555555555555555-----------------|
A|--5555555555555555--2222222222222222--5555555555555555-----------------|
E|--------------------------------------3333333333333333-----------------|

e|----------------|-------------|-----------|----------------------------|
B|----------------|-------------|-----------|----------------------------|
G|----------------|-------------|-----------|----------------------------|
D|---5--4--2---7--|----2--4--5--|--4--2--7--|-2--4-----------------------|
A|---5--4--2---7--|----2--4--5--|--4--2--7--|-2--4-----------------------|
E|---3--2--0---5--|----0--2--3--|--2--0--5--|-0--2-----------------------|

e|-----------------------------------------------------------------------|
B|-----------------------------------------------------------------------|
G|--7777777777777777--4444444444444444-----------------------------------|
D|--7777777777777777--4444444444444444--5555555555555555-----------------|
A|--5555555555555555--2222222222222222--5555555555555555-----------------|
E|--------------------------------------3333333333333333-----------------|




I'VE GOT A KNIFE COLLECTION
I FLAUNT MY IMPERFECTIONS
RAZOR SHARP, LOCKING JAWS
I'M WITHOUT A HERO TO WORSHIP

WISH I WAS ALIEN GORGEOUS INTELLEGENT 
I'D SETTLE FOR DIFFERENT
MAYBE I'LL SEE YOU LATER 
WHEN OUTSIDE THE CRATER 
I CAN SEE THE EARTH

I'VE GOT A SAD COMPLEXTION
A BOX OF UNNAMED WEAPONS
IF I COULD FIND THE TRIGGER 
I'D BLOW THE WHOLE DAMN PLANET



| /  slide up
| \  slide down
| h  hammer-on
| p  pull-off
| ~  vibrato
| +  harmonic
| x  Mute note
===============================================================================
Tap to rate this tab
 
# A B C D E F G H I J K L M N O P Q R S T U V W X Y Z