Song name
# A B C D E F G H I J K L M N O P Q R S T U V W X Y Z

Misc Unsigned Bands - Motion Sick - Opening Fuel tab

this is only the first half of the song the rest will be on soon 
Motion Sick is a amateur band from Airdre Alberta

this song is very simple but when you turn it up its hard core
it is played with 2 guitars 

guitar 1 

e|-----------------
B|-----------------
G|-----------------   x5
D|--4-4---4-4---4-4
A|--4-4---4-4---4-4
E|--2-2---2-2---2-2
-------------------------------
guitar 1 and 2                |
e|----------------------      |
B|----------------------      |
G|----------------------x3    |
D|--4-4---4-4---4-4--4-5      |
A|--4-4---4-4---4-4--4-5      |
E|--2-2---2-2---2-2--2-3      |   
                               |
guitar 1       play all 6 times|
                               |
e|------------------  |---------
B|------------------  |
G|------------------  |
D|--6---2---5---9---  | 
A|--6---2---5---9---  | 
E|--5---0---3---7---  |
-----------------------

e|-----------------
B|-----------------
G|-----------------   x5
D|--4-4---4-4---4-4
A|--4-4---4-4---4-4
E|--2-2---2-2---2-2


tabbed by Jordan
Tap to rate this tab
 
# A B C D E F G H I J K L M N O P Q R S T U V W X Y Z