Song name
# A B C D E F G H I J K L M N O P Q R S T U V W X Y Z

Misc Unsigned Bands - Bare Egil Band - Gunnar tab

 Bare egil band is a norwegian band
 This song is called "Gunnar"

E|-------------------------------------------|
B|-------------------------------------------|
G|-------------------------------------------|
D|--------------2-2-2--2-3-4--4--4-----------|
A|--2--2--2-2-2-0-0-0--0-1-2--2--2-5-5-4-4---|
E|--0--0--0-0-0--------------------3-3-2-2---|
    gunnar......... 


E|-------------------------------------------|
B|-------------------------------------------|
G|-------------------------------------------|
D|--------------2-2-2--2-3-4--4--4-----------|
A|--2--2--2-2-2-0-0-0--0-1-2--2--2-5-5-4-4---|
E|--0--0--0-0-0--------------------3-3-2-2---|
    vi vet det.....


E|-------------------------------------------|
B|-------------------------------------------|
G|-------------------------------------------|
D|--------------2-2-2--2-3-4--4--4-----------|
A|--2--2--2-2-2-0-0-0--0-1-2--2--2-5-5-4-4---|
E|--0--0--0-0-0--------------------3-3-2-2---|
    du er homo.....


E|-------------------------------------------|
B|-------------------------------------------|
G|-------------------------------------------|
D|--------------2-2-2--2-3-4--4--4-----------|
A|--2--2--2-2-2-0-0-0--0-1-2--2--2-5-5-4-4---|
E|--0--0--0-0-0--------------------3-3-2-2---|



the song continues after this
with the same chords
Tap to rate this tab
 
# A B C D E F G H I J K L M N O P Q R S T U V W X Y Z