Song name
# A B C D E F G H I J K L M N O P Q R S T U V W X Y Z

Misc Unsigned Bands - Rising - Cradle tab

Here's the intro to "Cradle" by a relatively unknown band (The Rising) that
deserves some credit for this pretty damn good song.  If anyone knows the rest,
please post!!!!!!

1st Part
eb|--------------------------------------------------------------||
Bb|----------4--4-4-----------4-------------4--------------4-----||
Gb|-4--4--4--4--4-4----4------4------4------4------4-------4-(3x)||
Db|-2--2--2--2--2-2----2-(6X)-2-(3x)-2-(3x)-2-(3x)-2-(6x)--2-----|| 
Ab|-4--4--4------------4-------------4-------------4-------------||
Db|--------------------------------------------------------------||

2nd Part (to simplify, just remove your middle finger from the A string)
eb|--------------------------------------------------------------||
Bb|----------4--4-4-----------4-------------4--------------4-----||
Gb|-4--4--4--4--4-4----4------4------4------4------4-------4-(3x)||
Db|-2--2--2--2--2-2----2-(6X)-2-(3x)-2-(3x)-2-(3x)-2-(6x)--2-----|| 
Ab|-0--0--0------------0-------------0-------------0-------------||
Db|--------------------------------------------------------------||

If this isnt perfect, its very close!!
Thanks and be sure to rate!!
Tap to rate this tab
# A B C D E F G H I J K L M N O P Q R S T U V W X Y Z