Guitaretab - guitar tabs
Song name
# A B C D E F G H I J K L M N O P Q R S T U V W X Y Z

Misc Unsigned Bands - Royal Bliss - Fine Wine tab

----------------------------------------------------------------------------
			     Fine Wine - Royal Bliss
----------------------------------------------------------------------------
Tabbed by: Andy
Royal Bliss is band that is not signed yet but will be soon

Tuning:Standard
[ Tab from: http://www.guitaretab.com/m/misc-unsigned-bands/52035.html ]
Intro/verse/chorus
     G                  D       Em             C    
e|-----------3-3----------2-2---------0-0--------------0---------|
B|-----------3---3----------3--------------0---------1---1-------|
G|--------0--0----0-----2----------0--------0------0-------0-----|
D|-------------------0----------2----------------2---------------|
A|------2-----------------------2--------------3-----------------|
E|----3-------------------------0--------------0-----------------            

      G                Em             D
e|------------3-3-----------0-0-------0--2-h3r2--2-2h3-----------|
B|------------3---3-------------0-----3--3--3--------------------|
G|---------0--0-----0--0--0-------0---2--2--2--------------------|
D|---------------------2-----------------------------------------|
A|------2--------------2-----------------------------------------|
E|----3----------------0-----------------------------------------|
      


| /  slide up
| \  slide down
| h  hammer-on
| p  pull-off
| ~  vibrato
| +  harmonic
| x  Mute note
============================================================================
Related for Royal Bliss - Fine Wine tab
Advertisement will be closed in 10 seconds