Song name
# A B C D E F G H I J K L M N O P Q R S T U V W X Y Z

Misc Unsigned Bands - Your Girlfriend Naked - Hour Glass tab

Help us improve GuitareTab! Take a short survey!
Your Girlfriend Naked
Song: Hour Glass
Album: Running With Scissors
Tabbed by John

Check Out their web site at www.freewebs.com/yourgfnaked/

Intro


e/-----------------------------------------------|
b/-----------------------------------------------|
g/-----------------------------------------------|
d/-----------------------------------------------|
a/-------------5555----------333-2---------------|
e/----3333-----------5555------------------------|

Verse

e/-----------------------------------------------|
b/-----------------------------------------------|
g/-----------------------------------------------|
d/--------------------7777------------- 5555-----|
a/----5555---------5555--7777----3333------------|
e/----3333------------------5555-----------------|

Chorus

e/-----------------------------------------------|
b/-----------------------------------------------|
g/-----------------------------------------------|
d/--9----7---------------------------------------|
a/--7----5---7----5------------------------------|
e/-------------5--- 3----------------------------|
Related for Your Girlfriend Naked - Hour Glass tab