Song name
# A B C D E F G H I J K L M N O P Q R S T U V W X Y Z

Misc Unsigned Bands - This Side Down - Just For Show tab

Help us improve GuitareTab! Take a short survey!
       Brand new band this side down
Band: this side down(there new, i just heard them on a demo)
Song: just for show
Tabbed by: Robert(the fat one; Esteban knows who i mean)
Tuning: lowered in the E

Alot of distortion


Intro:
|----------------------------------------------------------|
|----------------------------------------------------------|
|----------------------------------------------------------|
|----------------------------------------------------------|
|-------------------------5-3-0----------------------------|x2
|-----------5-3-0------------------------------------------|
|-555-444-0-------555-4-0----------------------------------|


Verse:
|----------|  |--------------------------------------------|
|----------|  |--------------------------------------------|
|----------|  |--------------------------------------------|
|--------3~|  |--------------------------------------------|
|--------3~|x4|----------------4-5-------------------------|x4
|555-444-0~|  |-0-4-5--0-4-5--0----------------------------|


Chorus:
|---------------------------------------------------------|
|---------------------------------------------------------|
|---------------------------------------------------------|
|---------------------------------------5-7-3-3~----------|
|7777777-77777777-7-77777777-77777777-7-x-x-x-x-----------|x2
|5555555-44444444-0-55555555-44444444-0-3-5-1-1~----------|



Verse



Chorus



Fill: 
|--------------------------------------------------------|
|--------------------------------------------------------|
|--------------------------------------------------------|
|33-33-33-33-33-33-33-33-33-3-33-3-33-3-33-3-------------|
|33-33-33-33-33-33-33-33-33-3-33-3-33-3-33-3-------------|
|00-00-00-00-00-00-00-00-00-0-00-0-00-0-00-0-------------|
 ..    ..    ..    ..    ..   ..   ..   ..



Chorus


and there you have it in that order




| /  slide up      
| \  slide down
| h  hammer-on
| p  pull-off
| ~  vibrato
| +  harmonic
| x  Mute note
| .  Palm mute
==============================================================
Related for This Side Down - Just For Show tab