Song name
# A B C D E F G H I J K L M N O P Q R S T U V W X Y Z

Misc Unsigned Bands - This Side Down - Emo Kids Unite tab

new artist


Intro

Guitar One
e-----------------------------------------------------|
b-----------------------------------------------------|
g-88-8-8----9-9--9--9---66-6-6---44-4-4---------------| X4
D-99-9-9---1010-10-10---77-7-7---55-5-5---------------|
A-00-0-0----0-0--0--0---00-0-0---00-0-0---------------|
E-----------------------------------------------------|

Guitar Two
e-----------------------------------------------------|
b-----------------------------------------------------|
g-55-5-5-5-1010-10-10-10--99-9-9-9--77-7-77777--------| X4
D-55-5-5-5-1010-10-10-10--99-9-9-9--77-7-77777--------|
A-33-3-3-3--9-9--9--9--9--77-7-7-7--57-5-55555--------|
E-33-3-3-3--9-9--9--9--9--77-7-7-7--55-5-55555--------|
  .. . .    . .  .  .     .. . .    .. .

This Side Down Is Just getting started we been looking for a drumer and bass
If your are a good and serious player email me at Falloutboy_meets_rufio@yahoo.com have fun.


I heard This year Rufio is the best, their video for white lights kicked ass keep an eye 
them.
Tap to rate this tab
 
# A B C D E F G H I J K L M N O P Q R S T U V W X Y Z