Song name
# A B C D E F G H I J K L M N O P Q R S T U V W X Y Z

Misc Unsigned Bands - This Side Down - Dumped Him Cause He Was To Emo tab

www.Ultimate-Guitar.com
new band

This side down
Dumped him cause he was to emo

Robert(co and ca is not gay)
i dedicate this tab to E. Santos(lol)

Verse:
---------------------------------------------------------|
---------------------------------------------------------|
---------------------------------------------------------|
9999999-555555-77----7\5---------------------------------|x2
9999999-555555-77-x2-7\5---------------------------------|
7777777-333333-55----0-0---------------------------------|
....... ...... ..

Chorus:
---------------------------------------------------------|
---------------------------------------------------------|
555555555\33333333---------------------------------------|
555555555\33333333-9-7-----------------------------------|x2
333333333\11111110-9-7-----------------------------------|
-------------------7-5-----------------------------------|

Lead: (for chorus and verse)
----7-5-4-0---7-5-4-0-----999-777-555-444-0--------------|
-7-0-------5-7-------5-7-3-------------------------------|
---------------------------------------------------------|
---------------------------------------------------------|
---------------------------------------------------------|
---------------------------------------------------------|

thats pretty much the whole song
here are the lyrics(im not sure about the words)

Verse:
she likes you
and you know it
so tell what your all about
then we tell her your an emo loser
and she ran away
from you
Chorus:
hay isnt that the girl you like
hay isnt that the girl you like
hay dont you want to make out with her
he soes look jst like you
Tap to rate this tab
 
# A B C D E F G H I J K L M N O P Q R S T U V W X Y Z