Guitaretab - guitar tabs
Song name
# A B C D E F G H I J K L M N O P Q R S T U V W X Y Z

Misc Unsigned Bands - This Side Down - Nystagmus Nyctophobia tab

This Side Down
nytagmus nyctophobia
Standard Tuning

Robert(T.S.D is not emo)

Well this side down is not emo Spainish Steven and this song is an example


Verse
------------------------------------------------------------|
------------------------------------------------------------|
------------------------------------------------------------|
------------------------------------------------------------|whole thing
12-12-12-9-9-9-7-X4-12-12-12-9-9-9-7--X4--------------------|  X4
---------------------0--0--0-0-0-0-0------------------------|
[ Tab from: http://www.guitaretab.com/m/misc-unsigned-bands/52685.html ]
Chorus
------------------------------------------------------------|
------------------------------------------------------------|
------------------------------------------------------------|
------------------------------------------------------------|
55555555-99999999-77777777-3-3-3-33-------------------------|X2
00000000-00000000-00000000-0-0-0-00-------------------------|

Fill
------------------------------------------------------------|
------------------------------------------------------------|
------------------------------------------------------------|
------------------------------------------------------------|
777-999-777-999-777-999-777-999-777-999---------------------|
000-000-000-000-000-000-000-000-000-000---------------------|
... ... ... ... ... ... ... ... ... ...


The band This Side Down does not like Rufio who are indeed the gayest band ever; This 
Down is not AN EMO BAND,SPAINISH STEVEN. DASHBOARD CONFESSINALS FREAK!although the other
member does like dashboard(im such a hypocrite)
Related for This Side Down - Nystagmus Nyctophobia tab
×
This Side Down - Nystagmus Nyctophobia