Song name
# A B C D E F G H I J K L M N O P Q R S T U V W X Y Z

Misc Unsigned Bands - Abandoned - Track 2 tab

Hey u guys!! We're a new band, we got a record deal and we going 2 da top!!
so u might not hav heard of us yet, but we'll hav a website eventually (if i ever get
around to make 1) tell us 2 your friends, we'll be out soon! cya!

P.S. hope u like our song!!





Band: The Abandoned
Song: Track 2

Tuning: drop D


Intro:

E:|----------------------------------------------0-0000000---|
B:|------------------------------0-----0------0--------------|
G:|-------------0------0------0-----0------0-----------------|
D:|----0-----0------0------0------3-----3--------------------|
A:|--0-----0------3------3-----------------------------------|
D:|3-----3---------------------------------------------------|



Chorus:

E:|------------------------------------------------|
B:|------------------------------------------------|
G:|------------------------------------------------|
D:|----------------0-0-0-0-0-0-0-0-3-3-3-5-5-5-5-5-|  x2
A:|x-x-x-x-x-x-x-x-0-0-0-0-0-0-0-0-3-3-3-5-5-5-5-5-|
D:|x-x-x-x-x-x-x-x-0-0-0-0-0-0-0-0-3-3-3-5-5-5-5-5-|
increase volume to ^here

E:|--------------------------------|
B:|--------------------------------|
G:|--------------------------------|
D:|7-7-7-7-7-7-7-7-9-9-9-7-7-7-5---|  x2
A:|7-7-7-7-7-7-7-7-9-9-9-7-7-7-5---|
D:|7-7-7-7-7-7-7-7-9-9-9-7-7-7-5---|



Verses:

E:|--------------------------------|
B:|--------------------------------|
G:|--------------------------------|
D:|7-7-7-7-9-9-9-5-5-5-5-5-5-5-5-0-|
A:|7-7-7-7-9-9-9-5-5-5-5-5-5-5-5-0-|
D:|7-7-7-7-9-9-9-5-5-5-5-5-5-5-5-0-|

Thats it!! I wrote the song so its defenetly right ;)
Tap to rate this tab
 
# A B C D E F G H I J K L M N O P Q R S T U V W X Y Z