Song name
# A B C D E F G H I J K L M N O P Q R S T U V W X Y Z

Misc Unsigned Bands - Knuckledown - Ink Blots tab

ARTIST: Knuckledown
LOCATION: Richmond, RI
TITLE: Ink Blots (Album 1)
ALBUM: Euphoria
GENRE: Post Hardcore / Rock / Screamo
BAND MEMBERS: Ryan Moran - guitar / vocals
              Chad Bauerle - Guitar
              Paul Webb - Bass
              Evan Green - Drums


TABBER: Crystle Eguita (ill_6rrrl@hotmail.com)  
DATE: Friday, September 24, 2004. 12:44AM


---
Basically, I listened to the song and wrote down the tabs for the intro. 
It's not that hard to play, but i'm not sure if these are correct. 
Sorry if this is too short, it's what I could come up with at the moment, 
ENJOY ANYWAYS!
---


INTRO:

E -----10---9-----------------|-----10---9-----------------|
B --------0---10--10h12-10h12-|--------0---10--10h12-10h12-|
G ----------------------------|----------------------------|
D ----------------------------|----------------------------|
A ----------------------------|----------------------------|
E -7--------------------------|-7--------------------------|

E -----5-5--------|-----5-------------------|
B ----------8-8-8-|--------7-8--8p7---------|
G ----------------|-------------------------|
D ----------------|-------------------------|
A ----------------|-------------------------|
E -7--------------|-7-----------------------|


E -----10---9-----------------|-----10---9-----------------|
B --------0---10--10h12-10h12-|--------0---10--10h12-10h12-|
G ----------------------------|----------------------------|
D ----------------------------|----------------------------|
A ----------------------------|----------------------------|
E -7--------------------------|-7--------------------------|

E -----5-5--------|-----5-------------------|
B ----------8-8-8-|--------7-8--------------|
G ----------------|-------------------------|
D ----------------|-------------------------|
A ----------------|-------------------------|
E -7--------------|-7-----------------------|

(Drums and bass come in) *Repeat x1
Tap to rate this tab
 
# A B C D E F G H I J K L M N O P Q R S T U V W X Y Z