Guitaretab - guitar tabs
Song name
# A B C D E F G H I J K L M N O P Q R S T U V W X Y Z

Misc Unsigned Bands - Theory - Its Not Over tab

Actual Artist- Theory (my garage band
Song title- "Its not over"


(guitar number 1)


(part 1)
E -----------------------------------------------------|
G -----------------------------------------------------|
B -----------------------------------------------------|
D -0-2-4-2-0--2-4-2-0--2-4-2-0---4-4-2-2-0-0---------|
A------------2---------4---------0---------------------|
E------------------------------------------------------|  (4x)

(part 2)
E ----------------------------------------------------------------------|
G ----------------------------------------------------------------------|
B ----------------------------------------------------------------------|
D -x-x-x-x-x-x-x--------------------------------------------------------|
A --------------x-x-x-x-x-x-x-------------x-x-x-x-x-x-x-----------------|
E ---------------------------x-x-x-x-x-x-x------------------------------| (2x)

(part 1)
E -------------------------------------------------------|
G -------------------------------------------------------|
B -------------------------------------------------------|
D --0-2-4-2-0--2-4-2-0--2-4-2-0--4-4-2-2-0-0----------|
A ------------2---------4---------0----------------------|
E--------------------------------------------------------|  (2x)

                           (this is the chorus)
E ------------------------------------------------------------------|
G ------------------------------------------------------------------|
B ------------------------------------------------------------------|
D -6-6-6/4-4-4-4/2-2-2-2-0-x-x-x-x-6-4---------------------------|
A -6-6-6/4-4-4-4/2-2-2-2-0-x-x-x-x-6-4---------------------------|
E ------------------------------------------------------------------|   (4x)

(part 3)
E ----------------------------------------------------------------------|
G ----------------------------------------------------------------------|
B ---------2---------0---------2---------2/0----------------------------|
D -x-x-x-x--------------------------------------------------------------|
A ----------x-x-x-x-------------x-x-x-x---------------------------------|
E --------------------x-x-x-x-------------------------------------------| (2x)
[ Tab from: http://www.guitaretab.com/m/misc-unsigned-bands/52770.html ]
(part 2)
E ----------------------------------------------------------------------|
G ----------------------------------------------------------------------|
B ----------------------------------------------------------------------|
D -x-x-x-x-x-x-x--------------------------------------------------------|
A --------------x-x-x-x-x-x-x-------------x-x-x-x-x-x-x-----------------|
E ---------------------------x-x-x-x-x-x-x------------------------------| (2x)

(play chorus)

(part 4)
E -----------------------------------------------------------------------|
G -----------------------------------------------------------------------|
B -----------------------------------------------------------------------|
D -9-9-9-5-5-5-7-7-7-3-3-3-9---------------------------------------------|
A -9-9-9-5-5-5-7-7-7-3-3-3-9---------------------------------------------|
E -----------------------------------------------------------------------|

(play chorus again)

                          --End of song--

(guitar number 2) same thing except chorus and parts 2 and 4 are different

(part 2)

E ------------------------------------------------------------------------|
G ------------------------------------------------------------------------|
B ------------------------------------------------------------------------|
D ------------------------------------------------------------------------|
A ---------------x-x-x-x-x-x-x---------------x-x-x-x-x-x-x----------------|
E -x-x-x-x-x-x-x---------------x-x-x-x-x-x-x------------------------------|

(part 4)

E -7-7-7-7-7-7-7-3-3-3-3-3-3-3-5-5-5-5-5-5-5-2-2-2-2-2-2-2---------------|
G -----------------------------------------------------------------------|
B -----------------------------------------------------------------------|
D -----------------------------------------------------------------------|
A -----------------------------------------------------------------------|
E -----------------------------------------------------------------------|

(this is the chorus)

E ------------------------------------------------------------------|
G ------------------------------------------------------------------|
B ------------------------------------------------------------------|
D -6-6-6---4-4-4--2-2-2---x-x-x-x-7-5------------------------------|
A -4-4-4--2-2-2---0-0-0---x-x-x-x----------------------------------|
E ------------------------------------------------------------------|
Related for Theory - Its Not Over tab