Song name
# A B C D E F G H I J K L M N O P Q R S T U V W X Y Z

Misc Unsigned Bands - Vanhal - Rip tab

this is a new band!


R.I.P.
Vanhal
-------------

Drop D or just standard tuning

Drumbeat

Intro
Strumming
e---------------------------|
b---------------------------|
g-------7-------------------|
d------7--7-------5-----9---|
a----5------5-5/3---3/7-----|
e---------------------------|

e---------------------------|
b---------------------------|
g-------7-------------------|
d------7--7-------5-----3---|
a----5------5-5/3---3/1-----|
e---------------------------|

Stanza:
Strumming:
Higher D-HIgher C-higher E-
Higher D-Higher C- Higher B
(pattern in Stanza)

Pre-Chorus
e-------------------------------------------------------|
b-------------------------------------------------------|
g----9------10---11-------------------------------------|
a----9-(3x)-10---11-------------------------------------|
a----7------8----9--------------------------------------|
e-------------------------------------------------------|repeat this until chorus

Chorus:

Strumming
e---------------|----------------------------------------|
b---------------|----------------------------------------|
g----7---5---3--|---7---9--10--9-------------------------|
d----7---5---3--|---7---9--10--9-------------------------|
a----5---3---1--|---5---7--9---7-------------------------|
e---------------|----------------------------------------|

repeat Strumming till stanza
Repeat Pre-chorus
repeat Chorus

-Break-

-Bass-

repeat all till end
Tap to rate this tab
# A B C D E F G H I J K L M N O P Q R S T U V W X Y Z