Song name
# A B C D E F G H I J K L M N O P Q R S T U V W X Y Z

Misc Unsigned Bands - Murder Rape - For The Glory Of Evil Warriors tab

Murder Rape
For the Glory of Evil Warriors
...and Evil Returns
Tabbed By Kevin Cruz

Murder Rape is an Undergrund Black Metal Band

STandard Tuning

E:-------------------------|-------------------------|
B:-------------------------|-------------------------|
G:-------------------------|-------------------------|
D:----3--------------------|----3--------------------|4X 
A:-5--1-3--5---------------|-5--1-3--5---------------|
E:-3----1--3-333-333-333-3-|-3----1--3-333-333-333-3-|

The Little Solo
E:-----------------------------|
B:-----------------------------|
G:-----------------------------|
D:-----------------------------| 2X
A:-------------5---------------|
E:-3~-\6~-/1~--3-333-333-333-3-|
Tap to rate this tab
 
# A B C D E F G H I J K L M N O P Q R S T U V W X Y Z