Song name
# A B C D E F G H I J K L M N O P Q R S T U V W X Y Z

Misc Unsigned Bands - Murder Rape - Echoes From The New Millenium tab

Murder Rape
Echoes form the New Millenium
...and Evil Returns
Tabbed By Kevin Cruz

Murder Rape is an Underground Black metal band

Standard Tunning

E:-----------------------------------------------------------------|
B:-----------------------------------------------------------------|
G:-----------------------------------------------------------------|
D:-----------------------------------------------------------------|
A:------------------------10-10-10-10-10-10-10-10-9-9-9-9-9-9-9-9--|
E:-12-12-12-12-12-12-12-12-----------------------------------------|

E:-------------|
B:-------------|
G:-------------|
D:-12-10-8-----|
A:---------10--|
E:-------------|

tHIS IS ALL I'VE GOT SO fAR
Tap to rate this tab
# A B C D E F G H I J K L M N O P Q R S T U V W X Y Z