Song name
# A B C D E F G H I J K L M N O P Q R S T U V W X Y Z

Misc Unsigned Bands - Murder Rape - Descendant From The Dark Side tab

Help us improve GuitareTab! Take a short survey!
Murder Rape
Descendant from the Dark Side
...and Evil Returns
Tabbed By Kevin Cruz

Murder Rape is an Undergroun Black metal Band

Standard Tunning

E:--------------------------------------|
B:--------------------------------------|
G:--------------------------------------|
D:--------------------------------------|
A:-10-9-7----9-------------3------5---2-|
E:--------10-7---7-8---1-1-1--3-3-3---0-|
                       . .    . .

E:--------------------------------------|
B:--------------------------------------|
G:--------------------------------------|
D:--------------------------------------|
A:-10-9-7----9-------------3------5---2-|
E:--------10-7---7-8---1-1-1--3-3-3---0-|
                       . .    . .
Related for Murder Rape - Descendant From The Dark Side tab