Guitaretab - guitar tabs
Song name
# A B C D E F G H I J K L M N O P Q R S T U V W X Y Z

Misc Unsigned Bands - 2020 Vision - The Cookies Song tab

The Cookies Song
Intro (play twice)
E|----------------------------------------------|
B|----------------------------------------------|
G|----------------------------------------------|
D|------5p4----5-4----5-4-4-----5-4---5-4---5-44|
A|--3-3------3------3-------4-4-----4-----4-----|
E|----------------------------------------------|
intro b (play once)
E|----------------------------------------------|
B|----------------------------------------------|
G|----------------------------------------------|
D|------6-5---6-5----6-5------6-5---6-5---6-5---|
A|--4-4-----4-----4-------6-6-----6-----6-------|
E|----------------------------------------------|
Intro C
E|----------------------------------------------|
B|----------------------------------------------|
G|----------------------------------------------|
D|---6-6-6-8-8-8-8-X-9-9------------------------|
A|---6-6-6-8-8-8-8-X-9-9------------------------|
E|---6-4-4-8-6-6-6-X-7-7------------------------|
Main Riff And verses
E|----------------------------------------------|
B|----------------------------------------------|
G|----------------------------------------------|
D|---6-6-\-8-8----------------------------------|
A|---6-6-\-8-8----------------------------------|
E|---4-4-\-6-6----------------------------------|
Chorus
E|----------------------------------------------|
B|----------------------------------------------|
G|----------------------------------------------|
D|------5------7------5-3-4---------------------|
A|------5------7------5-3-4---------------------|
E|--000-3--000-5--000-3-1-2---------------------|
(repeat)
Bridge Riffs
E|----------------------------------------------|
B|----------------------------------------------|
G|----------------------------------------------|
D|--12-12-14-14"-9*7*-------------------------|
A|--12-12-14-14--9-7----------------------------|
E|--10-10-12-12--7-5----------------------------|

E|----------------------------------------------|
B|----------------------------------------------|
G|----------------------------------------------|
D|-9-9-9-9-X-X-X-7-7----------------------------|
A|-9-9-9-9-X-X-X-7-7----------------------------|
E|-9-9-7-7-X-X-X-5-5----------------------------|

E|----------------------------------------------|
B|----------------------------------------------|
G|----------------------------------------------|
D|----5-6-7-------------------------------------|
A|----5-6-7-------------------------------------|
E|----3-4-5-------------------------------------|
[ Tab from: http://www.guitaretab.com/m/misc-unsigned-bands/52895.html ]
Related for 2020 Vision - The Cookies Song tab